Arctic Monkeys - Brian Storm (var.7) Notas de bajo guitarra (tab) descargar gratis o reproducir online

Notas de bajo guitarra (tab) para Brian Storm (var.7) de Arctic Monkeys descargar gratis, leer o reproducir online. Info de archivo: .txt, 1.32 kb, 248 visualizaciones y 0 descargas.

Descargar notas de bajo guitarra (tab) "Brian Storm (var.7)" (Arctic Monkeys)

Arctic Monkeys Nombre de grupo
Brian Storm Nombre de canción
Notas de bajo guitarra (tabs) Tipo de nota
1.32 kb Tamaño de archivo
.TXT Tipo de archivo
248 visualizaciones
0 descargas
 
Eres un robot?

Brian Storm (var.7) notas de bajo guitarra (tab) leer y reproducir online

                    intro
G----------|
D----------|
A--88-8-88-|
E----------|

main riff
G-------------------------|
D-------------------------|
A---8---------7--10-8-----|
E-----9-8-999---------9-8-|

deeper riff comes in at 1:36
G---------------------|
D---------------------|
A--2--------1-4-2-----|
E----3-2-333------3-2-|

G----------|
D----------|
A--22222222
E----------

solo
G--------------------------------------|
D------------11-11-10---------11-11-10-|
A--77777/1010-----------11-11----------|
E--------------------12----------------|

bridge
G-----------------------|
D-----------------------|
A-----------443-----443-|
E--11111-44-----444-----|

solo
G--------------------------------------|
D------------11-11-10---------11-11-10-|
A--77777/1010-----------11-11----------|
E--------------------12----------------|

bridge
G-----------------------|
D-----------------------|
A-----------443-----443-|
E--11111-44-----444-----|

G--------------------------------|
D--------------------------------|
A-----------443-----443----------|
E--11111-44-----444-----44444444-|

G-----------------------------|
D--------------------11-11-10-|
A-----------443---------------|
E--11111-44-----444-----------|

outro
G----------|
D----------|
A--88-8-88-|
E----------|

the brigdes are difficult to hear and opinion may vary on how they are played, thats 
i came up with...                    

Comentarios para notas de bajo guitarra (tab) — Brian Storm (var.7) (Arctic Monkeys)

Otras notas para Brian Storm (var.7) de Arctic Monkeys:

Las últimas notas vistas de Arctic Monkeys: