Arctic Monkeys - Brian Storm (var.6) Notas de guitarra (tab) descargar gratis o reproducir online

Notas de guitarra (tab) para Brian Storm (var.6) de Arctic Monkeys descargar gratis, leer o reproducir online. Info de archivo: .txt, 5.46 kb, 270 visualizaciones y 0 descargas.

Descargar notas de guitarra (tab) "Brian Storm (var.6)" (Arctic Monkeys)

Arctic Monkeys Nombre de grupo
Brian Storm Nombre de canción
Notas de guitarra (tabs) Tipo de nota
5.46 kb Tamaño de archivo
.TXT Tipo de archivo
270 visualizaciones
0 descargas
 
Eres un robot?

Brian Storm (var.6) notas de guitarra (tab) leer y reproducir online

                    -------------------------------------------------------------------------------
			     Brianstorm - Arctic Monkeys
-------------------------------------------------------------------------------
Tabbed by: James
Email:

Tuning: EADGBe

I'm sure this is about 95% correct, there's a few bits that are difficult to hear on my 
of the song, so any comments are welcome. Thanks
_________________________

Intro
Gtr.1
e|--------------|    |-----------------|
B|--------------|    |-----------------|
G|--------------|    |-----------------|
D|-3-3-3--------|    |-10-10-10--------|
A|-3-3-3--------|    |-10-10-10--------|
E|-1-1-1-x32----| or |-8--8--8--x32----|

Gtr.2 (after 16 bars of Gtr.1)
e|------------------------------|
B|------------------------------|
G|------------------------------|
D|--333333---333333-333333------|
A|---------4--------------------|
E|-------------------------x16--|

Fill on Gtr.2 (Gtr.1 plays nothing)                                                   [00.23-00.24]
e|-------------------------------------------|
B|-------------------------------------------|
G|-------------------------------------------|
D|--333333-------------------------------5---|
A|---------44-333333---444444-66-777777------|
E|-------------------4-----------------------|

_________________________

Verse

Gtr.1 (No Gtr.1 when the first vocals come in -"Brian, top marks for not trying...")  [00.37-00.38]
e|--------------------------------|
B|--------------------------------|
G|-10--6-5--66-8-9--12------------|
D|-10--6-5--66-8-9--12------------|
A|-8---4-3--44-6-7--10------------|
E|----------------------x12-------|

Gtr.2 (Follows the same pattern as the 5th chords in Gtr.1)
e|--------------------------------|
B|--------------------------------|
G|--------------------------------|
D|-3---------------5--------------|
A|---4-3-4-4-6-7------------------|
E|----------------------x12-------|

Fill on Gtr.2 (Gtr.1 plays nothing)
e|-------------------------------------------|
B|-------------------------------------------|
G|-------------------------------------------|
D|--333333-------------------------------5---|
A|---------44-333333---444444-66-777777------|
E|-------------------4---------------------x3| (the fourth time it stops at the 4th fret
on low E)

Repeat verse again

_________________________

Chorus                                                                                [1.35-1.36]

Gtr.1  ("For a while...")
e|----------------------------------|
B|----------------------------------|
G|--5-55-5555--6--------------------|
D|--5-55-5555--6--------999999999---|
A|--3-33-3333--4--------999999999---|
E|-----------------x3---777777999---|

Gtr.2 (After 2 bars of Gtr.1)
e|----------------------------------|
B|----------------------------------|
G|----------------------------------|
D|---------3--------3---2-----------|
A|--333333---333333-----2-----------|
E|----------------------0(let ring)-|

________________________

Bridge

Fill on Gtr.1 or 2                                                                    [1.47-1.48]
e|---------------------------------------------------------------------------|
B|---------------------------------------------------------------------------|
G|---------------------------------------------------------------------------|
D|---------------------------------------------------------------------------|
A|--------------44-33----44-3------------------------------------------------|
E|-1-1-1-1-1-44-------44-----------------------------------------------------|

Gtr.1                 Gtr2
e|--------------|    |-----------------------|
B|--------------|    |-----------------------|
G|--------------|    |-----------------------|
D|-3------------|    |-10-10-10-10-10-11-----|
A|-3------------|    |-10-10-10-10-10-10-----|
E|-1--x16-------|    |-8--8--8--8--8--8---x2-|

Fill on Gtr.1 or 2
e|---------------------------------------------------------------------------|
B|---------------------------------------------------------------------------|
G|---------------------------------------------------------------------------|
D|---------------------------------------------------------------------------|
A|--------------44-33----44-3------------------------------------------------|
E|-1-1-1-1-1-44-------44-----------------------------------------------------|

Gtr.1                 Gtr2
e|--------------|    |-----------------------|
B|--------------|    |-----------------------|
G|--------------|    |-----------------------|
D|-3------------|    |-10-10-10-10-10-11-----|
A|-3------------|    |-10-10-10-10-10-10-----|
E|-1------------|    |-8--8--8--8--8--8------|
(Play this until the part with just vocals and drums)

________________________

Verse

Gtr.1 ("Thunder!")
e|--------------------------------|
B|--------------------------------|
G|-10--6-5--66-8-9--12------------|
D|-10--6-5--66-8-9--12------------|
A|-8---4-3--44-6-7--10------------|
E|----------------------x4--------|

Gtr.2
e|--------------------------------|
B|--------------------------------|
G|--------------------------------|
D|-3---------------5--------------|
A|---4-3-4-4-6-7------------------|
E|----------------------x4--------|

[PAUSE]

________________________

Outro

Gtr.1                 Gtr.2
e|--------------|    e|-----------------|
B|--------------|    B|-----------------|
G|--------------|    G|-----------------|
D|-3-3-3--------|    D|-10-10-10--------|
A|-3-3-3--------|    A|-10-10-10--------|
E|-1-1-1--x8----|    E|-8--8--8---x8----|

Finish on

e|----|
B|----|
G|----|
D|-3--|
A|-3--|
E|-1--|                    

Comentarios para notas de guitarra (tab) — Brian Storm (var.6) (Arctic Monkeys)

Otras notas para Brian Storm (var.6) de Arctic Monkeys:

Las últimas notas vistas de Arctic Monkeys: