Arctic Monkeys - Brain Storm (var.1) Notas de bajo guitarra (tab) descargar gratis o reproducir online

Notas de bajo guitarra (tab) para Brain Storm (var.1) de Arctic Monkeys descargar gratis, leer o reproducir online. Info de archivo: .txt, 1.52 kb, 162 visualizaciones y 0 descargas.

Descargar notas de bajo guitarra (tab) "Brain Storm (var.1)" (Arctic Monkeys)

Arctic Monkeys Nombre de grupo
Brain Storm Nombre de canción
Notas de bajo guitarra (tabs) Tipo de nota
1.52 kb Tamaño de archivo
.TXT Tipo de archivo
162 visualizaciones
0 descargas
 
Eres un robot?

Brain Storm (var.1) notas de bajo guitarra (tab) leer y reproducir online

                    Band - Arctic Monkeys
Song - Brianstorm
Album - Favorite Worst Nightmare

Standrd Tuning EADG

This is my first tab, any critisims welcome!


Intro (up and down really fast or hit the note and stop it really quickly over and 
seem to sound ok)
G|--------|
D|--------|
A|-8-8-8-8|    0:00 - 0:24
E|--------|

Verse
G|-----------------------------------------------|
D|-----------------------------------------------|
A|-8--4-3--4-4-6-7--10---------------------------|  x12
E|-----------------------------------------------|

Guitar 1:01-1:13

Verse
G|-----------------------------------------------|
D|-----------------------------------------------|
A|-8--4-3--4-4-6-7--10---------------------------|  x8
E|-----------------------------------------------|


Pre-Chorus
G|-------------------|
D|-------------------|
A|-3-------3-3------4|  x3
E|----4-1------1-4---|

Pre-Bridge
G|--------|
D|--------|
A|--------| 1:45 - 1:48
E|-0-0-0-0|

Bridge (loads of ways to play this, i prefer sliding up the string because
i reckon it sounds more like the song)
G|---------------------------------|
D|---------------------------------|
A|88888-1111-1616-1515-1111-1616-16| x8
E|---------------------------------|

Drums

Verse
G|-----------------------------------------------|
D|-----------------------------------------------|
A|-8--4-3--4-4-6-7--10---------------------------|  x4
E|-----------------------------------------------|

Break....

Outro
G|--------|
D|--------|
A|-8-8-8-8|
E|--------|                    

Comentarios para notas de bajo guitarra (tab) — Brain Storm (var.1) (Arctic Monkeys)

Otras notas para Brain Storm (var.1) de Arctic Monkeys:

Las últimas notas vistas de Arctic Monkeys: